Рок - исполнители

ГлавнаяПарк ГорькогоПарк Горького → Тексты песен с аккордами группы Парк Горького

Тексты песен с аккордами группы Парк Горького

California Promises

Dm               C                 
I'm on a side'o' canyon road   
Dm                    C
An' people drive and stare   
Dm                C
I'm eating dust inside my throat   
Dm            Bb              C
Away from the face I wouldn't wear  

Verse2:

Bb                 F                  
The ground spins inside my head   
Bb                   F
And I can't drive anymore   
Bb               
Just bring my body down   
F                             C
And dream of what there was before  

Chorus:               

Dm           Bb
Promises, my promises   
Gm                 C
They take me all the way to extreme
Dm          Bb                 
My California promises   
Gm               C
They locked me up inside of a dream

Verse3:

Dm               C                  
I see the shadows on a strip   
Dm                     C
They come and stay for good   
Dm                       C
Sleepwalking grace with broken bones   
Dm              Bb           C
They've come to conquer Hollywood   

Verse4:

Bb                       F
They fly at night to the candle light   
Bb                                F
They burn their wings and feel no pain   
Bb   
The part that once you got   
F                           C
You must go on and keep on playing     
Chorus(repeat)- 2 times!

Bridge:

D Bb                 C  (Ab)
Stare, staring in the sky   
Bb               C
Trying to catch a sight of angels flying   
(See the sky with angels flying)   
D Bb                 C  (Ab)
Stare, staring in the sky   
Bb                   C
I just see the eyes that are never crying
Chorus(repeat)-2 times!
(Gm-Bb-F)-END!!!

Ocean

Intro:

e-8---7----------------0------------8-7-------------0-----------------
H---5---5-----0-1--3-----3--------0-----5-----0-1-3---3-------0-------
G-----------2--------2---------1------------2-------------------1-----
D-7-------3--------0----------------7-----3-------0---------4---------
A----------------------------2----------------------------2-----------
E--------------------------0----------------------------0-------------

Verse:
Am E
e---------------------------------------------------------------------
H---------1---------------3---1-------1-------------------------0-----
G-----2-------2-------2---------2---2---2-----3---------------1-------
D---2---2---2-------2---2---2-----3---------3---3-----3---------------
A-0-------------0-------------------------1---------3---3---2---------
E-----------------3-------------------------------1-------0-----------
^^^^^^^^^^^^^^^^^^^^^^^^^^^^^^^^^^^^^^^^^^^^^^^^^^^^^^^ A
e-----------------------------------------------------------------0----
H-----------------------------------------------------------------2----
G-//---//---//THE SAME-//---//----//---//---//--//----//--------2------
D-------------------------------------------------------------2--------
A-----------------------------------------------------------0----------
E---------------------------------------------------------0------------

Chorus: Dm G Em F C D F G

Take me back to see the ocean
Bearing sound'o'waves devotion
Wash away the words corosion
That we left behide

Clean me up with wind and water
I'm your sun and you're my daughter
I won't let this moment slaughtered
In my buring mind

Chorus:
And when I'm lost inside the walls
I'd live this moment moment more and more
So blind I can't help it
Lost inside the walls
I need this moment moment more and more
So blind I can't help it

Searching ways for understanding
I would lose my boat standed
Now I know I was defending
Castel on a sand

Take me back to see the ocean
City's draining my emotions
Let me have a healing potion
Sipping off your hands.

Stranger

riff 1 :
|---------------------------------------------------|
|-------4-----4-----4-----4-------3-----3-------1-3-|
|-----5-----5-----5-----5-------3-----3-----3-4-----| 4 times
|---5-----5-----5-----5-------3-----3-----3---------|
|-3-------------------------1-----------------------|
|---------------------------------------------------|


|--3-4----
|--3---5--
|--3---5--
|--3------
|--3------
' style='color=#000066'>Cm
|--1------
|--1------
|--1----3-
|--1----3-
|--1------
' style='color=#000066'>Fm G#
|------3---
|----------
|----------
|----------
|----2-----
|------3---' style='color=#000066'>G
Stranger next to me, have I seen your face

|--3-4----
|--3---5--
|--3---5--
|--3------
|--3------
' style='color=#000066'>Cm
|--1------
|--1------
|--1----3-
|--1----3-
|--1------
' style='color=#000066'>Fm G#
|------3---
|----------
|----------
|----------
|----2-----
|------3---' style='color=#000066'>G
Stranger tell me please, have I seen this place
Oh stranger you're so close I can hold your hand
I'm a stranger oh just like you don't you understand
Oh stranger

Silence stopped the time I can hear your heart
Glimmer of your eyes reach me from the dark
I'm dreaming or may be not clothing's falling down
All matters we're giving up
Cause nothing matters now
Oh stranger

CHORUS:

Between the walls and face to face. Oh stranger
We won't have another chance. Oh stranger
There won't be another night
|--3-4----
|--3---5--
|--3---5--
|--3------
|--3------
' style='color=#000066'>Cm
|--1------
|--1------
|--1----3-
|--1----3-
|--1------
' style='color=#000066'>Fm
|------3---
|----------
|----------
|----------
|----2-----
|------3---' style='color=#000066'>G
(We couldn't lie)

riff 2:

|--3-4----
|--3---5--
|--3---5--
|--3------
|--3------
' style='color=#000066'>Cm____
|--1------
|--1------
|--1----3-
|--1----3-
|--1------
' style='color=#000066'>Fm____G#________G
|-5-----1-----------------|
|-4-----1---------5-----4-|
|-5-----1---------6-----5-|
|-5-----3-------6---------|
|-3-----3----4---------3-|
|-------1-----------------|

Oh stranger
With me tonight
You're stranger
With me all night
My stranger
My stranger
...We couldn't lie.

Tell Me Why

проигрыш:
C Fmaj7 D5sus2 G  (fill 1)
C Fmaj7 D5sus2 G

примечание:
C и  Fmaj7 играть, отпуская 2 струну

D5sus2
III fret
e|o---|---|---|---|
H||-+-|---|---|---|
G||---|-+-|---|---|
D|o---|---|---|---|
A|x---|---|---|---|
E|x---|---|---|---|

fill 1: на G accord
e-|
H-|
G-|
D-|
A|------3-5---|
E|3-3-5-----3-|

C                  Fmaj7         G
Who's to say which one of us is right
C                Fmaj7              G
Everything ain't always black and white
Em                       F
Now trying to change it ain't easy
Em                F
Nobody wants to believe me
B                        G                   Asus2
I guess that I'm just that kind that won't give up

Every day is like an uphill climb
We've got to learn to change
And leave the past behind
But trying to change it ain't easy
Nobody wants to believe me
No matter what I do it never seems to be enough
Asus2
But I won't give up no I won't give up

припев:
F      G      Em   Am
Tell me why why why oh whyaiaia
F       G         B   A
We can't find the time to tryaiaia
F        G      Em  Am
Tell me why why why oh whyaiaia
F        G
I can't win this fight without you

проигрыш

I know sometimes it seems to be so hard
But just reach out to us and we'll be where you are
Oh you can make it so easy
If you'd only believe me
And try together cause we'll be there for you
And we won't give up no we won't give up

припев

little solo:
начинается с Fmaj7 -  один такт, затем:

C     Am   D5
e---------------|
H|-----1--------1-3-3-1-3-1-|
G|-----0------2-2-2-2-2-2-2-|  3 times
D|---2--------0-------------|
A|-3-----0------------------|
E---------------|
G     C     D
e--------------|
H|-----0-----1-3-----------|
G|---0-----0---2-----------|
D--0-----------|
A|-2-----3-----------------|
E--------------|

F           G
Raise your hand together
F        G
Take a stand together
F           G              A
Let's all try to win this fight

припев   - 2 times

C Fmaj7 C Fmaj7........ C

Two Candles

Lonelyness is my only guest
Dm E Am Am/G
Who visits me alone at night
F
When it comes I light two candles
Em
Just the way it was
F# Am H7
And pretend the flames become your eyes
Emptyness is a friend I guess
The shadow played upon the wall
If I let the candles take me
I can see your face
And remember hearing someone call your name
Em D Cadd9 Dsus4
My candles are crying O-o-o-o-h
Em D Cadd9 Dsus4
My candles are crying O-o-o-o-h
Em C Am Hm7 (табулатура этой и следующей строчки - ниже)
They're crying for you
Em C Am Hm7
They're waiting for you
{Проигрыш}
I'm waiting for you
Is it you knocking at my door
Or maybe just a ghostly wind
How I wish that you were here
Sitting by my side
And you'll bring me back to life again tonight

My candles are crying O-o-o-o-h |
My candles are crying O-o-o-o-h |
They're crying for you | repeat twice
They're waiting for you |
I'm waiting for you |

Последние строки припева играются так:
e-0-----3-----2---0-----3-----2---0-----3-----2---
B---0-----0-----0---1-----1-----1---1-----1-----1-
G-----0-----0---------0-----0---------2-----2-----
D-2-----------------------------------------------
A-----------------3---------------0---------------
E-------------------------------------------------

e-2-----5-------2-
B---3-----3---3---
G-----2-----2-----
D-----------------
A-2---------------
E-----------------

Проигрыш играется так (повторить два раза):

e-----------------------------------------------
B---------0-------------1-----------------------
G-------0---0---0-----0-------0-----------------
D-----4-------4-----2-------4---4---------------
A---2-------------3-------5---------------------
E-0---------------------------------------------

Интересная статья? Поделись ей с другими, нажми на кнопку!

Наша группа в ВКонтакте!

Мы в социальных сетях

vk ok twitter

facebook   youtube   rss

Клуб "Ящик"

Наши партнёры

Navigator Records - звуко-записывающая компания

navigator_records


 

Компания GA Butterfly Concept

ga


 

MAD BIRD PRODUCTION

madbirdie


 

RockAnons.ru - музыкальный информационный портал

rockanons.ru


 

ConcertGuide.ru - твой путеводитель по концертам

concertguide

Счётчики портала

Яндекс цитирования Счетчик PR-CY.Rank Рейтинг@Mail.ru