Рок - исполнители

ГлавнаяБИ-2Би-2 → Тексты песен с аккордами группы БИ-2

Тексты песен с аккордами группы БИ-2

Варвара

Gm D# Cm F
[A|-------------|-6-6-------6-|-3-3-------3|-------------| BA
E|-3-3-------3-|-------------|------------|-1-1-------1-| SS]

Gm D# Cm F Gm D# Cm F
Как грустно и очень обычно все вышло
Gm D# Cm F Gm D# Cm F
Ушла от меня и в ночь теперь слезно кричу
Gm D# Cm F Gm D# Cm F
Мне просто обидно шаги одиночества слышать
Gm D# Cm F Gm D# Cm F
И страшно подумать и вряд ли я жизнь доживу

Gm D# Cm F
варвара } 4 раза

Gm D# Cm F Gm D# Cm F
С тобой я готов был бежать на край света
Gm Am(V)? A# Cm D
Hо ты изменила сама ты туда удрала
Gm D# Cm F Gm D# Cm F
Порвалась струна и теперь моя песенка спета
Gm D# Cm F Gm D# Cm F
И жизни мне нет вот такие дела

Gm D# Cm F
варвара } 4 раза

проигрыш: [G|-------7-8---|------------|------------|-----7-8-|--5--5-------------| BA
D|-------------|------------|------------|---------|-------------------| SS
A|-------------|-3--5-6-5-3-|------------|---------|-3--3---30---------| BA
E|--3-3--------|------------|--111--222--|-3-3-----|-----------111-222-| SS

G|-------7-8---|--5--5------|--------7-8-|---------|-------------------| BA
D|-------------|------------|------------|---------|-------------------| SS
A|-------------|-3--3--30---|------------|-5-------|-------------------| BA
E|--3-3--------|----------1-|-11-2-3-----|---------|-------------------| SS]

Когда-то был счастлив а счастье так и ушло
За счастьем несчастье так грустно вот так и пошло
И ждать на крылечке уже бесполезно тебя
Ох как далеко далеко далеко от меня ты

Gm D# Cm F
варвара е-о } 4 раза

Gm D# Cm F
варвара ага угу но где ты } 10 раз

Ещё не вечер

Em
У тебя война
C Csus C9
Все горит в руках
Em
Линия ума
C Csus C9
Лезвие в ладонях

Am
И вино срывает голос
Em
Как стекло перемололось
F# C C9 C
И однажды превратилось в пыль
Припев:

Em
Еще не вечер
F# G F#
Под самым сердцем
Am Am/H Am/C Am/H
Чужое тело
Em
Еще не поздно
F# Am Am/H Am/C Am/H
Осколок солнце не догорело

Figure

За тобою боль
Как слепая месть
Но покажет бой
Дом уже не крепость
И вода пойдет под камень
Сточит быстрыми ручьями
И однажды превратится в пыль

припев.

Figure

Coda: Em Em7 Em Em dim

Зажигать

Жадно так глотает солнце
Cm Gm
Два серебрянных крыла.
Cm Gm
Милый друг твой не вернется
F E
В этот город никогда.
И огни усталых улиц
Станут по тебе скучать
Только им печаль такую
В твоем сердце не унять.
Cm Gm F E
И зажигать пьяные звезды
Cm Gm F E
Мне без тебя так будет сложно
Как нелегко плывут ресницы
Не узнает твой герой
Если что-нибудь случится
Где-то за морем с тобой
С ним теперь другое небо
Облака над голоывой
И ступает ангел следом
Не знакомый и чужой
припев
Все коварная разлука
Обнимала,как сестра
Превращала в её руки
Два серебрянных крыла
Сколько дождь шептал,а толку?
Её казалось не всерьез
И разбилась на осколки
Всех невыплаканных слез
припев

И корабль плывёт

Figure/coda: Hm F# (2 раза)
Em D F#

Hm F#
Сколько звезд на погоны
Hm F#
Добыли в боях
Em D
На пустых полигонах
F#
В неведомых снах
(те же аккорды)
Дайте небо под крылья
Подстреленных птиц
Журавлиному клину
Скорую помощь

припев:
G
Отпустите синицу
A
На верную смерть
F# Hm
Пусть ее приласкает свобода
G
И корабль плывет
A
И сквозь колотый лед
F# G F#
Я смотрю в эту черную воду

Figure

Никого не зову
Не жалею не плачу
У вас на яву
У меня на удачу
И луна как стекло
Не любила не грела
Никого не ждала
Ничего не хотела

Припев.

Coda

Мой рок-н-ролл

F G
И то, что было, наголо
Am
Откроется потом
F
Мой рок-н-ролл
G Am
Это не цель и даже не средство

Не новое, а заново
Один и об одном
Дорога - мой дом
И для любви это не место

F G
Припев: Прольются все слова как дождь
Am
И там, где ты меня не ждешь
F G Am
Ночные ветры принесут тебе прохладу
F G
На наших лицах без ответа
Am C
Лишь только отблески рассвета
F G Am
Tого, где ты меня не ждешь.

Проигрыш:
[e|-8-7-------8-7------8-7---------------------
B|-----8-10------8-5------8-10--12--13-12-10--

F G Am F G Am
8-7-------8-7------8-7--------------|
----8-10------8-5------8-10--8--10--|]

А дальше - это главное
Похожий на тебя
В долгом пути
Я заплету волосы лентой

И не способный на покой
Я знак подам тебе рукой
Прощаясь с тобой
Как будто с легендой.

Припев

Прольются все слова как дождь
И там, где ты меня не ждешь
Ночные ветры принесут тебе прохладу
На наших лицах без ответа
Лишь только отблески рассвета
Tого, где ты меня не ждешь.

Am F G Am F G Am
[e|-8-7-------8-7------8-7---------------------
B|-----8-10------8-5------8-10--12--13-12-10--

F G Am F G Am
8-7-------8-10-12-13-10-12--12-10------------|
----8-10--------------------------10--8--10--|]

И то, что было, наголо
Откроется потом
Мой рок-н-ролл
Это не цель и даже не средство
Не новое, а заново
Один и об одном
Дорога - мой дом
И для любви это не место
И для любви это не место
И для любви это не место...

Моя любовь

Cm
(1) У героев стынет кровь
Разбиваются и вновь
Fm
Идут ко дну
Cm
Идут ко дну

Успокоит океан
И расстелет по волнам
Свою вину
Свою вину

C# Cm
Припев: Кончится пленка
C# G
Ты ждешь ребенка
От меня

Cm
М-мм-мм-м, м-мм-мм-м
Fm
Моя любовь
Cm
Моя любовь

(2) Уходили в плаванье
За чужие гавани
Вести войну
Вести войну

Но известно лишь волнам
Что оставит океан
Тебя одну
Тебя одну

Припев

Мяу Кисс Ми

Am(4x) Am E F G(баре)
Уху-ху-ху-ху, Уху-ху-ху-ху, Уху-ху-ху-ху.(2х) =)
Am E F
Люби меня как я тебя и может полные края
G(баре)
Я расплескаю все до капли
Вода чернеет у моста и за трубой два хвоста
Берут за горло чьи-то лапы
(те же аккорды, ну лана напишу еще разок :) )
Am E
Мяу кисс ми ненавистная любовь
F G(баре)
Я зализывать твои не буду раны
Мяу кисс ми свои мысли за кого
Я гореть и плавить свое сердце стану
Навылет очередь, она, так близко сядет от меня
И разорвет, наверное, в клочья
И все что дальше, только тень и невозможным каждый день
Для тех, кому не спится ночью

Припев.
(Опять тоже ухухуканье и с теми же аккордами)
Уху-ху-ху-ху, Уху-ху-ху-ху, Уху-ху-ху-ху. (2х)

Припев.

Ну дальше можно еще пройгрышь
Am E F G(баре)(2х)

Никто не придёт

Никто не придет

Am
(1) Я забыл с чем рифмуется "жди"
F
Hо у времени много слов
G
Я увидел как впереди
E
Точит косу старуха-любовь
Снова краски меняет страх
Hа плетень моих белых стен
С темной ночи и до утра
Черной женщины падает тень

C Em C Am
Припев: ... Hикто не придет

(2) Я накапливал звуки и сны
Hазывал это "белый джаз"
Все ушло с ее легкой руки
В черных клавиш собачий вальс
Я писал о тебе белый стих
И вмещал весь словарный запас
В танец дикий твоих чернил
То что делало слабыми нас

Припев: ...Hикто не придет

Полковнику никто не пишет

Clean Guitar: 1|--6------5-------------------6------5----------
2|-------------------6-4--4-6--------------------
3|----7-7---7-7--7---------------8-8--8-8--8-7-
4|------------------------------------------------
5|------------------------------------------------
6|------------------------------------------------

N.C. Gm
Большие гоpода
D#
Пyстые поезда
Cm
Hи беpега, ни дна
D(V)
все начинать сначала

Холодная война
И вpемя, как вода
Он не сошел с yма
Ты ничего не знала...

G(Gm) D#
Пpипев: Полковникy никто не пишет

1|-------------------------------------------
2|-------------------------------------------
3|-----5-3-----------------------------------
4|---5-----5------------------8-8--8-8-------
5|-5---------5--5-6-5--8-6--6-6--6-6---------
6|-------------------------------------------

G(Gm) F
Полковника никто не ждет

1|-----------------------------6-6-5--6-6-5--
2|-------------------------------------------
3|-----5-3-----------------------------------
4|---5-----5---------------------------------
5|-5---------5--5-6-5--8-6-------------------
6|-------------------------------------------

Полковникy никто не пишет
Полковника никто не ждет...

Hа линии огня
Пyстые гоpода,
в котоpых никогда
Ты pаньше не бывала
И pвyтся поезда
Hа тонкие слова
Он не сошел с yма
Ты ничего не знала...

Пpипев } 3 pаза.

Solo: 1|-------------------------------------------
2|-------------------------------------------
3|-------------------------------------------
4|------------------10--------------10-------
5|----12-13-12-13------12-13-12-13-----------
6|-10-----------------10---------------------

1|-------------------------------------------
2|-------------------------------------------
3|-------------------------------------------
4|-----------10----------15-13-12-10-12------
5|---12-13----13-12---------------------12---
6|-10----------------------------------------

Серебро

Am F
Я не веpнyсь
Dm Em Am
Так говоpил когда-то
F Dm Em Am
И тyман глотал мои слова
F Dm Em
И пpевpащал их в водy

Am F
Я всё отдам
Dm Em Am
За пpодолжение пyти
F
Оставлю позади
Dm Em Am F Dm Em
Свою беспечнyю свободy

Пpипев:
Hе потеpять бы в сеpебpе
F
Её однy
Dm Em
Заветнyю

Пpоигpыш: } 4 pаза

Hе по себе
От этой тихой и чyжой зимы
С котоpой я на ты
Hам не стеpпеть дpyг дpyга

И до войны
Мне не добpаться никогда
Моя безyмная звезда
Ведет меня по кpyгy

Пpипев

А в облаках
Застыл лyны невеpный свет
И в нем пеpемешались гоpода и я
Зовy её несмело

Феллини

Rhythm Melody/Intro:
D5 F5 D5 F5 D5 F5 A5 C5
[G|-7-7-/10-7-7-7-/10-7-7-7-/10-------------|
D|-7-7-/10-7-7-7-/10-7-7-7-/10-7-7-7-/10---| - основная мелодия песни.
A|-5-5-/8- 5-5-5-/8- 5-5-5-/8--7-7-7-/10---|
E|-----------------------------5-5-5-/8- 0-|]

D5 D5 D5 A5 D5 D5 D5 D5 A5
(1) В одном из неснятых фильмов Федерико Феллини,
D5 D5 D5 A5 D5 D5 D5 D5 A5
На тоненькой льдине, в бокале "Мартини".
D5 D5 D5 A5 D5 D5 D5 A5
Герой на героине, героиня на героине,
D5 D5 D5 A5 D5 D5 D5 D5 A5
И двойная сплошная пролегла между ними.

(2) Между ними секунду назад было жарко,
А теперь между ними лежат снега Килиманджаро.
Патроны в магазине, глазами на резине,
И отравленный воздух глотают так жадно.
Зря...

D5 A5
Припев: Зря ты думаешь о смерти.
D5 A5
Я хочу найти письмо в пустом конверте
D5 E5 F5 G5
[G|-7-/9-/10-/12-|]
[D|-7-/9-/10-/12-|] или [G|-7-/9-/10-/12-|]
[A|-5-/7-/8--/10-|] то же самое
[E|--------------|] на одной струне
И прочесть тебе.

Rhythm Melody/Solo:

[E|-5-5-6-5----------|
B|---------3-/5-/6--|]

(3) В одном из неснятых фильмов Федерико Феллини
Лежат снега Килиманджаро.
Герой на героине, героиня на героине,
И отравленный воздух глотают так жадно.

Припев } 2 раза

Rhythm Melody/Solo:

Интересная статья? Поделись ей с другими, нажми на кнопку!

Наша группа в ВКонтакте!

Мы в социальных сетях

vk ok twitter

facebook   youtube   rss

Клуб "Ящик"

Наши партнёры

Navigator Records - звуко-записывающая компания

navigator_records


 

Компания GA Butterfly Concept

ga


 

MAD BIRD PRODUCTION

madbirdie


 

RockAnons.ru - музыкальный информационный портал

rockanons.ru


 

ConcertGuide.ru - твой путеводитель по концертам

concertguide

Счётчики портала

Яндекс цитирования Счетчик PR-CY.Rank Рейтинг@Mail.ru